Allthemen Regular Fit Herren Hose 100 Baumwolle B07FFK4MZ7

Allthemen Regular Fit Herren Hose 100 Baumwolle B07FFK4MZ7
Allthemen Regular Fit Herren Hose 100 Baumwolle B07FFK4MZ7 Allthemen Regular Fit Herren Hose 100 Baumwolle B07FFK4MZ7 Allthemen Regular Fit Herren Hose 100 Baumwolle B07FFK4MZ7 Allthemen Regular Fit Herren Hose 100 Baumwolle B07FFK4MZ7 Allthemen Regular Fit Herren Hose 100 Baumwolle B07FFK4MZ7
Produktnr.: B07FFK4MZ7
Verfügbarkeit: Vorrätig
Preis: 202,93€ 159,37€

Verfügbare Optionen

* Size:

Menge:  

  • HOSE mit schmaler Passform und geradem Beinverlauf - zeitloser Stil

  • DETAILS: Zwei Einschubtaschen vorne und 2 Gesäßpaspeltaschen hinten

  • Verschluss: Reißverschluss

  • 100% Baumwolle

  • Straight

  • BEFESTIGUNG: Knopf mit Reißverschluss

  • PFLEGEHINWEIS: Maschinenwäsche (Max. 30℃)

  • ES gibt eine GRÖßENTABELLE an der Produktbeschreibungen. Bitte wählen Sie die Größe entsprechend unserem Größendiagramm.

  • Herren Hose, spezielle Design für Business, Arbeit sowie Freizeit.

    Fashionabel, bequem und elegant. Mit unserer hohen Kleidungqualität und professionalem design können sie eleganter und faszinierender wird.

    Material: 100% Baumwolle, hohe Stoffqualität und gut vernäht, hohe Lenbensdauer.

    Passform: Europäische Größe, Regular Fit Schnitt, perfekte Passform und zeitlosen Style.

    Beinhaltet: nur Hose,
    Knopf mit Reißverschluss
    Zwei Einschubtaschen vorne und zwei Leistentaschen hinten.

    Pflegehinweis: Keine chemische Reinigung, nicht bleichen, nicht im Wäschetrockner trocken, Bügeln gringe Hitze.

    Größentabelle: (Die angegebenen Maße beziehen sich auf die Hose, nicht auf Ihren Körper)


    International---Taillenumfang---Beckenumfang---Beinlänge (CM)
    29------------------------73--------------------97----------------105
    30------------------------77--------------------100---------------105
    31------------------------80--------------------103---------------105
    32------------------------83--------------------106---------------105
    33------------------------87--------------------109---------------106
    34------------------------90--------------------112---------------106
    35------------------------93--------------------115---------------106
    36------------------------97--------------------118---------------106
    38------------------------100-------------------120---------------107
    40------------------------103-------------------122---------------107
    42------------------------107-------------------125---------------107

    Allthemen Regular Fit Herren Hose 100 Baumwolle B07FFK4MZ7

    Das hier gezeigte Produkt ist in verschiedenen Ausführungen, Farben und Größen erhältlich. Bitte hinterlassen Sie uns eine Nachricht auf der Zahlungsseite, wenn die Option nicht ausgewählt werden kann. Wir versenden das Produkt als Ihr Antrag.